0
SECTION
2
HEADER
9
$ANGDIR
70
0
9
$CHAMFERA
40
10
9
$CHAMFERB
40
10
9
$CLAYER
8
Layer_1
9
$EXTMAX
10
209.003
20
288.253
9
$EXTMIN
10
0
20
0
9
$LIMMAX
10
420
20
297
9
$LIMMIN
10
0
20
0
9
$LTSCALE
40
10
9
$PLINEGEN
70
0
9
$TEXTSIZE
40
20
9
$GRIDUNIT
10
0.25
20
0.25
9
$SNAPUNIT
10
1
20
1
0
ENDSEC
0
SECTION
2
TABLES
0
TABLE
2
STYLE
70
1
0
STYLE
2
STANDARD
70
0
40
0
41
1
50
0
71
0
42
0.2
3
txt
4

0
ENDTAB
0
TABLE
2
LTYPE
70
14
0
LTYPE
2
CONTINUOUS
70
0
3
Solid line
72
65
73
0
40
0
0
LTYPE
2
DOT
70
0
3
............................................
72
65
73
2
40
0.25
49
0
49
-0.25
0
LTYPE
2
HIDDEN
70
0
3
_ _ _ _ _ _ _ _ _ _ _ _ _ _ _ _ _ _ _ _ _ _ 
72
65
73
2
40
0.375
49
0.25
49
-0.125
0
LTYPE
2
TSLONGDASH
70
0
3
__ __ __ __ __ __ __ __ __ __ __ __ __ __ _ 
72
65
73
2
40
1.28
49
1
49
-0.28
0
LTYPE
2
TSDASHDOT
70
0
3
______ . ______ . ______ . ______ . ______ .
72
65
73
4
40
1.28
49
1
49
-0.14
49
0
49
-0.14
0
LTYPE
2
TSCENTER
70
0
3
______ _ ______ _ ______ _ ______ _ ______ _
72
65
73
4
40
2
49
1.5
49
-0.18
49
0.14
49
-0.18
0
LTYPE
2
TSPHANTOM
70
0
3
_____ _ _ _____ _ _ _____ _ _ _____ _ _ ____
72
65
73
6
40
2.5
49
1.63
49
-0.19
49
0.15
49
-0.19
49
0.15
49
-0.19
0
LTYPE
2
DASHED
70
0
3
__ __ __ __ __ __ __ __ __ __ __ __ __ __ __
72
65
73
2
40
0.75
49
0.5
49
-0.25
0
LTYPE
2
CENTER
70
0
3
____ _ ____ _ ____ _ ____ _ ____ _ ____ _ __
72
65
73
4
40
2
49
1.25
49
-0.25
49
0.25
49
-0.25
0
LTYPE
2
PHANTOM
70
0
3
_____ _ _ _____ _ _ _____ _ _ _____ _ _ ____
72
65
73
6
40
2.5
49
1.25
49
-0.25
49
0.25
49
-0.25
49
0.25
49
-0.25
0
LTYPE
2
DASHDOT
70
0
3
__ . __ . __ . __ . __ . __ . __ . __ . __ .
72
65
73
4
40
1
49
0.5
49
-0.25
49
0
49
-0.25
0
LTYPE
2
BORDER
70
0
3
__ __ . __ __ . __ __ . __ __ . __ __ . __ _
72
65
73
6
40
1.75
49
0.5
49
-0.25
49
0.5
49
-0.25
49
0
49
-0.25
0
LTYPE
2
DIVIDE
70
0
3
__ . . __ . . __ . . __ . . __ . . __ . . __
72
65
73
6
40
1.25
49
0.5
49
-0.25
49
0
49
-0.25
49
0
49
-0.25
0
ENDTAB
0
TABLE
2
LAYER
70
3
0
LAYER
2
Layer_1
70
0
62
7
6
CONTINUOUS
0
LAYER
2
Layer_2
70
0
62
7
6
CONTINUOUS
0
LAYER
2
Layer_3
70
0
62
7
6
CONTINUOUS
0
ENDTAB
0
ENDSEC
0
SECTION
2
ENTITIES
0
CIRCLE
8
Layer_1
6
CONTINUOUS
62
7
10
109
20
188.25
40
100.003
0
CIRCLE
8
Layer_1
6
CONTINUOUS
62
7
10
109
20
188.25
40
3.25
0
POLYLINE
8
Layer_1
6
CONTINUOUS
62
7
66
1
10
0
20
0
70
128
40
0
41
0
0
VERTEX
8
Layer_1
6
CONTINUOUS
62
7
10
181.83
20
197.529
0
VERTEX
8
Layer_1
6
CONTINUOUS
62
7
10
129.506
20
192.951
0
SEQEND
0
POLYLINE
8
Layer_1
6
CONTINUOUS
62
7
66
1
10
0
20
0
70
128
40
0
41
0
0
VERTEX
8
Layer_1
6
CONTINUOUS
62
7
10
129.677
20
190.959
0
VERTEX
8
Layer_1
6
CONTINUOUS
62
7
10
181.998
20
195.536
0
SEQEND
0
POLYLINE
8
Layer_1
6
CONTINUOUS
62
7
66
1
10
0
20
0
70
128
40
0
41
0
0
VERTEX
8
Layer_1
6
CONTINUOUS
62
7
10
181.227
20
201.492
0
VERTEX
8
Layer_1
6
CONTINUOUS
62
7
10
128.415
20
196.871
0
SEQEND
0
POLYLINE
8
Layer_1
6
CONTINUOUS
62
7
66
1
10
0
20
0
70
128
40
0
41
0
0
VERTEX
8
Layer_1
6
CONTINUOUS
62
7
10
128.565
20
194.877
0
VERTEX
8
Layer_1
6
CONTINUOUS
62
7
10
181.223
20
199.484
0
SEQEND
0
POLYLINE
8
Layer_1
6
CONTINUOUS
62
7
66
1
10
0
20
0
70
128
40
0
41
0
0
VERTEX
8
Layer_1
6
CONTINUOUS
62
7
10
180.525
20
205.445
0
VERTEX
8
Layer_1
6
CONTINUOUS
62
7
10
126.415
20
200.711
0
SEQEND
0
POLYLINE
8
Layer_1
6
CONTINUOUS
62
7
66
1
10
0
20
0
70
128
40
0
41
0
0
VERTEX
8
Layer_1
6
CONTINUOUS
62
7
10
126.617
20
198.721
0
VERTEX
8
Layer_1
6
CONTINUOUS
62
7
10
180.589
20
203.443
0
SEQEND
0
POLYLINE
8
Layer_1
6
CONTINUOUS
62
7
66
1
10
0
20
0
70
128
40
0
41
0
0
VERTEX
8
Layer_1
6
CONTINUOUS
62
7
10
179.511
20
209.372
0
VERTEX
8
Layer_1
6
CONTINUOUS
62
7
10
123.304
20
204.455
0
SEQEND
0
POLYLINE
8
Layer_1
6
CONTINUOUS
62
7
66
1
10
0
20
0
70
128
40
0
41
0
0
VERTEX
8
Layer_1
6
CONTINUOUS
62
7
10
123.496
20
202.464
0
VERTEX
8
Layer_1
6
CONTINUOUS
62
7
10
179.64
20
207.376
0
SEQEND
0
POLYLINE
8
Layer_1
6
CONTINUOUS
62
7
66
1
10
0
20
0
70
128
40
0
41
0
0
VERTEX
8
Layer_1
6
CONTINUOUS
62
7
10
178.292
20
213.281
0
VERTEX
8
Layer_1
6
CONTINUOUS
62
7
10
118.203
20
208.024
0
SEQEND
0
POLYLINE
8
Layer_1
6
CONTINUOUS
62
7
66
1
10
0
20
0
70
128
40
0
41
0
0
VERTEX
8
Layer_1
6
CONTINUOUS
62
7
10
118.441
20
206.037
0
VERTEX
8
Layer_1
6
CONTINUOUS
62
7
10
178.376
20
211.28
0
SEQEND
0
POLYLINE
8
Layer_1
6
CONTINUOUS
62
7
66
1
10
0
20
0
70
128
40
0
41
0
0
VERTEX
8
Layer_1
6
CONTINUOUS
62
7
10
176.797
20
217.165
0
VERTEX
8
Layer_1
6
CONTINUOUS
62
7
10
110.799
20
211.391
0
SEQEND
0
POLYLINE
8
Layer_1
6
CONTINUOUS
62
7
66
1
10
0
20
0
70
128
40
0
41
0
0
VERTEX
8
Layer_1
6
CONTINUOUS
62
7
10
111.027
20
209.403
0
VERTEX
8
Layer_1
6
CONTINUOUS
62
7
10
176.772
20
215.155
0
SEQEND
0
POLYLINE
8
Layer_1
6
CONTINUOUS
62
7
66
1
10
0
20
0
70
128
40
0
41
0
0
VERTEX
8
Layer_1
6
CONTINUOUS
62
7
10
175.05
20
221.028
0
VERTEX
8
Layer_1
6
CONTINUOUS
62
7
10
110.826
20
215.409
0
SEQEND
0
POLYLINE
8
Layer_1
6
CONTINUOUS
62
7
66
1
10
0
20
0
70
128
40
0
41
0
0
VERTEX
8
Layer_1
6
CONTINUOUS
62
7
10
110.986
20
213.415
0
VERTEX
8
Layer_1
6
CONTINUOUS
62
7
10
175.233
20
219.036
0
SEQEND
0
POLYLINE
8
Layer_1
6
CONTINUOUS
62
7
66
1
10
0
20
0
70
128
40
0
41
0
0
VERTEX
8
Layer_1
6
CONTINUOUS
62
7
10
173.055
20
224.868
0
VERTEX
8
Layer_1
6
CONTINUOUS
62
7
10
110.838
20
219.425
0
SEQEND
0
POLYLINE
8
Layer_1
6
CONTINUOUS
62
7
66
1
10
0
20
0
70
128
40
0
41
0
0
VERTEX
8
Layer_1
6
CONTINUOUS
62
7
10
110.982
20
217.43
0
VERTEX
8
Layer_1
6
CONTINUOUS
62
7
10
173.237
20
222.877
0
SEQEND
0
POLYLINE
8
Layer_1
6
CONTINUOUS
62
7
66
1
10
0
20
0
70
128
40
0
41
0
0
VERTEX
8
Layer_1
6
CONTINUOUS
62
7
10
170.767
20
228.683
0
VERTEX
8
Layer_1
6
CONTINUOUS
62
7
10
110.813
20
223.438
0
SEQEND
0
POLYLINE
8
Layer_1
6
CONTINUOUS
62
7
66
1
10
0
20
0
70
128
40
0
41
0
0
VERTEX
8
Layer_1
6
CONTINUOUS
62
7
10
111.006
20
221.447
0
VERTEX
8
Layer_1
6
CONTINUOUS
62
7
10
170.975
20
226.694
0
SEQEND
0
POLYLINE
8
Layer_1
6
CONTINUOUS
62
7
66
1
10
0
20
0
70
128
40
0
41
0
0
VERTEX
8
Layer_1
6
CONTINUOUS
62
7
10
168.227
20
232.476
0
VERTEX
8
Layer_1
6
CONTINUOUS
62
7
10
110.818
20
227.454
0
SEQEND
0
POLYLINE
8
Layer_1
6
CONTINUOUS
62
7
66
1
10
0
20
0
70
128
40
0
41
0
0
VERTEX
8
Layer_1
6
CONTINUOUS
62
7
10
111
20
225.462
0
VERTEX
8
Layer_1
6
CONTINUOUS
62
7
10
168.208
20
230.467
0
SEQEND
0
POLYLINE
8
Layer_1
6
CONTINUOUS
62
7
66
1
10
0
20
0
70
128
40
0
41
0
0
VERTEX
8
Layer_1
6
CONTINUOUS
62
7
10
165.261
20
236.232
0
VERTEX
8
Layer_1
6
CONTINUOUS
62
7
10
110.823
20
231.47
0
SEQEND
0
POLYLINE
8
Layer_1
6
CONTINUOUS
62
7
66
1
10
0
20
0
70
128
40
0
41
0
0
VERTEX
8
Layer_1
6
CONTINUOUS
62
7
10
110.994
20
229.477
0
VERTEX
8
Layer_1
6
CONTINUOUS
62
7
10
165.446
20
234.241
0
SEQEND
0
POLYLINE
8
Layer_1
6
CONTINUOUS
62
7
66
1
10
0
20
0
70
128
40
0
41
0
0
VERTEX
8
Layer_1
6
CONTINUOUS
62
7
10
161.888
20
239.952
0
VERTEX
8
Layer_1
6
CONTINUOUS
62
7
10
110.829
20
235.485
0
SEQEND
0
POLYLINE
8
Layer_1
6
CONTINUOUS
62
7
66
1
10
0
20
0
70
128
40
0
41
0
0
VERTEX
8
Layer_1
6
CONTINUOUS
62
7
10
110.989
20
233.492
0
VERTEX
8
Layer_1
6
CONTINUOUS
62
7
10
162.146
20
237.967
0
SEQEND
0
POLYLINE
8
Layer_1
6
CONTINUOUS
62
7
66
1
10
0
20
0
70
128
40
0
41
0
0
VERTEX
8
Layer_1
6
CONTINUOUS
62
7
10
158.138
20
243.64
0
VERTEX
8
Layer_1
6
CONTINUOUS
62
7
10
110.801
20
239.498
0
SEQEND
0
POLYLINE
8
Layer_1
6
CONTINUOUS
62
7
66
1
10
0
20
0
70
128
40
0
41
0
0
VERTEX
8
Layer_1
6
CONTINUOUS
62
7
10
111.015
20
237.509
0
VERTEX
8
Layer_1
6
CONTINUOUS
62
7
10
158.302
20
241.646
0
SEQEND
0
POLYLINE
8
Layer_1
6
CONTINUOUS
62
7
66
1
10
0
20
0
70
128
40
0
41
0
0
VERTEX
8
Layer_1
6
CONTINUOUS
62
7
10
153.794
20
247.275
0
VERTEX
8
Layer_1
6
CONTINUOUS
62
7
10
110.806
20
243.514
0
SEQEND
0
POLYLINE
8
Layer_1
6
CONTINUOUS
62
7
66
1
10
0
20
0
70
128
40
0
41
0
0
VERTEX
8
Layer_1
6
CONTINUOUS
62
7
10
111.008
20
241.524
0
VERTEX
8
Layer_1
6
CONTINUOUS
62
7
10
153.954
20
245.281
0
SEQEND
0
POLYLINE
8
Layer_1
6
CONTINUOUS
62
7
66
1
10
0
20
0
70
128
40
0
41
0
0
VERTEX
8
Layer_1
6
CONTINUOUS
62
7
10
148.718
20
250.846
0
VERTEX
8
Layer_1
6
CONTINUOUS
62
7
10
110.811
20
247.53
0
SEQEND
0
POLYLINE
8
Layer_1
6
CONTINUOUS
62
7
66
1
10
0
20
0
70
128
40
0
41
0
0
VERTEX
8
Layer_1
6
CONTINUOUS
62
7
10
111.002
20
245.539
0
VERTEX
8
Layer_1
6
CONTINUOUS
62
7
10
148.693
20
248.836
0
SEQEND
0
POLYLINE
8
Layer_1
6
CONTINUOUS
62
7
66
1
10
0
20
0
70
128
40
0
41
0
0
VERTEX
8
Layer_1
6
CONTINUOUS
62
7
10
142.621
20
254.328
0
VERTEX
8
Layer_1
6
CONTINUOUS
62
7
10
110.821
20
251.546
0
SEQEND
0
POLYLINE
8
Layer_1
6
CONTINUOUS
62
7
66
1
10
0
20
0
70
128
40
0
41
0
0
VERTEX
8
Layer_1
6
CONTINUOUS
62
7
10
110.996
20
249.553
0
VERTEX
8
Layer_1
6
CONTINUOUS
62
7
10
142.934
20
252.348
0
SEQEND
0
POLYLINE
8
Layer_1
6
CONTINUOUS
62
7
66
1
10
0
20
0
70
128
40
0
41
0
0
VERTEX
8
Layer_1
6
CONTINUOUS
62
7
10
135.227
20
257.696
0
VERTEX
8
Layer_1
6
CONTINUOUS
62
7
10
110.867
20
255.565
0
SEQEND
0
POLYLINE
8
Layer_1
6
CONTINUOUS
62
7
66
1
10
0
20
0
70
128
40
0
41
0
0
VERTEX
8
Layer_1
6
CONTINUOUS
62
7
10
110.965
20
253.566
0
VERTEX
8
Layer_1
6
CONTINUOUS
62
7
10
135.349
20
255.699
0
SEQEND
0
POLYLINE
8
Layer_1
6
CONTINUOUS
62
7
66
1
10
0
20
0
70
128
40
0
41
0
0
VERTEX
8
Layer_1
6
CONTINUOUS
62
7
10
124.869
20
260.805
0
VERTEX
8
Layer_1
6
CONTINUOUS
62
7
10
110.833
20
259.577
0
SEQEND
0
POLYLINE
8
Layer_1
6
CONTINUOUS
62
7
66
1
10
0
20
0
70
128
40
0
41
0
0
VERTEX
8
Layer_1
6
CONTINUOUS
62
7
10
110.986
20
257.583
0
VERTEX
8
Layer_1
6
CONTINUOUS
62
7
10
125.101
20
258.818
0
SEQEND
0
POLYLINE
8
Layer_1
6
CONTINUOUS
62
7
66
1
10
0
20
0
70
128
40
0
41
0
0
VERTEX
8
Layer_1
6
CONTINUOUS
62
7
10
36.1558
20
196.793
0
VERTEX
8
Layer_1
6
CONTINUOUS
62
7
10
88.3693
20
191.306
0
SEQEND
0
POLYLINE
8
Layer_1
6
CONTINUOUS
62
7
66
1
10
0
20
0
70
128
40
0
41
0
0
VERTEX
8
Layer_1
6
CONTINUOUS
62
7
10
88.578
20
193.295
0
VERTEX
8
Layer_1
6
CONTINUOUS
62
7
10
36.3103
20
198.788
0
SEQEND
0
POLYLINE
8
Layer_1
6
CONTINUOUS
62
7
66
1
10
0
20
0
70
128
40
0
41
0
0
VERTEX
8
Layer_1
6
CONTINUOUS
62
7
10
36.7442
20
200.754
0
VERTEX
8
Layer_1
6
CONTINUOUS
62
7
10
89.5329
20
195.205
0
SEQEND
0
POLYLINE
8
Layer_1
6
CONTINUOUS
62
7
66
1
10
0
20
0
70
128
40
0
41
0
0
VERTEX
8
Layer_1
6
CONTINUOUS
62
7
10
89.7571
20
197.193
0
VERTEX
8
Layer_1
6
CONTINUOUS
62
7
10
36.975
20
202.74
0
SEQEND
0
POLYLINE
8
Layer_1
6
CONTINUOUS
62
7
66
1
10
0
20
0
70
128
40
0
41
0
0
VERTEX
8
Layer_1
6
CONTINUOUS
62
7
10
37.5739
20
204.688
0
VERTEX
8
Layer_1
6
CONTINUOUS
62
7
10
91.5603
20
199.014
0
SEQEND
0
POLYLINE
8
Layer_1
6
CONTINUOUS
62
7
66
1
10
0
20
0
70
128
40
0
41
0
0
VERTEX
8
Layer_1
6
CONTINUOUS
62
7
10
91.7974
20
201
0
VERTEX
8
Layer_1
6
CONTINUOUS
62
7
10
37.8529
20
206.67
0
SEQEND
0
POLYLINE
8
Layer_1
6
CONTINUOUS
62
7
66
1
10
0
20
0
70
128
40
0
41
0
0
VERTEX
8
Layer_1
6
CONTINUOUS
62
7
10
38.6889
20
208.593
0
VERTEX
8
Layer_1
6
CONTINUOUS
62
7
10
94.7418
20
202.702
0
SEQEND
0
POLYLINE
8
Layer_1
6
CONTINUOUS
62
7
66
1
10
0
20
0
70
128
40
0
41
0
0
VERTEX
8
Layer_1
6
CONTINUOUS
62
7
10
94.9692
20
204.689
0
VERTEX
8
Layer_1
6
CONTINUOUS
62
7
10
38.8751
20
210.585
0
SEQEND
0
POLYLINE
8
Layer_1
6
CONTINUOUS
62
7
66
1
10
0
20
0
70
128
40
0
41
0
0
VERTEX
8
Layer_1
6
CONTINUOUS
62
7
10
40.0281
20
212.475
0
VERTEX
8
Layer_1
6
CONTINUOUS
62
7
10
99.8821
20
206.184
0
SEQEND
0
POLYLINE
8
Layer_1
6
CONTINUOUS
62
7
66
1
10
0
20
0
70
128
40
0
41
0
0
VERTEX
8
Layer_1
6
CONTINUOUS
62
7
10
100.069
20
208.175
0
VERTEX
8
Layer_1
6
CONTINUOUS
62
7
10
40.1551
20
214.472
0
SEQEND
0
POLYLINE
8
Layer_1
6
CONTINUOUS
62
7
66
1
10
0
20
0
70
128
40
0
41
0
0
VERTEX
8
Layer_1
6
CONTINUOUS
62
7
10
41.5382
20
216.338
0
VERTEX
8
Layer_1
6
CONTINUOUS
62
7
10
107.008
20
209.457
0
SEQEND
0
POLYLINE
8
Layer_1
6
CONTINUOUS
62
7
66
1
10
0
20
0
70
128
40
0
41
0
0
VERTEX
8
Layer_1
6
CONTINUOUS
62
7
10
107.168
20
211.451
0
VERTEX
8
Layer_1
6
CONTINUOUS
62
7
10
41.7135
20
218.33
0
SEQEND
0
POLYLINE
8
Layer_1
6
CONTINUOUS
62
7
66
1
10
0
20
0
70
128
40
0
41
0
0
VERTEX
8
Layer_1
6
CONTINUOUS
62
7
10
43.3011
20
220.175
0
VERTEX
8
Layer_1
6
CONTINUOUS
62
7
10
106.993
20
213.48
0
SEQEND
0
POLYLINE
8
Layer_1
6
CONTINUOUS
62
7
66
1
10
0
20
0
70
128
40
0
41
0
0
VERTEX
8
Layer_1
6
CONTINUOUS
62
7
10
107.195
20
215.47
0
VERTEX
8
Layer_1
6
CONTINUOUS
62
7
10
43.5193
20
222.163
0
SEQEND
0
POLYLINE
8
Layer_1
6
CONTINUOUS
62
7
66
1
10
0
20
0
70
128
40
0
41
0
0
VERTEX
8
Layer_1
6
CONTINUOUS
62
7
10
45.3612
20
223.98
0
VERTEX
8
Layer_1
6
CONTINUOUS
62
7
10
107.004
20
217.501
0
SEQEND
0
POLYLINE
8
Layer_1
6
CONTINUOUS
62
7
66
1
10
0
20
0
70
128
40
0
41
0
0
VERTEX
8
Layer_1
6
CONTINUOUS
62
7
10
107.182
20
219.494
0
VERTEX
8
Layer_1
6
CONTINUOUS
62
7
10
45.5694
20
225.969
0
SEQEND
0
POLYLINE
8
Layer_1
6
CONTINUOUS
62
7
66
1
10
0
20
0
70
128
40
0
41
0
0
VERTEX
8
Layer_1
6
CONTINUOUS
62
7
10
47.7194
20
227.754
0
VERTEX
8
Layer_1
6
CONTINUOUS
62
7
10
106.954
20
221.529
0
SEQEND
0
POLYLINE
8
Layer_1
6
CONTINUOUS
62
7
66
1
10
0
20
0
70
128
40
0
41
0
0
VERTEX
8
Layer_1
6
CONTINUOUS
62
7
10
107.215
20
223.512
0
VERTEX
8
Layer_1
6
CONTINUOUS
62
7
10
47.9052
20
229.746
0
SEQEND
0
POLYLINE
8
Layer_1
6
CONTINUOUS
62
7
66
1
10
0
20
0
70
128
40
0
41
0
0
VERTEX
8
Layer_1
6
CONTINUOUS
62
7
10
50.4176
20
231.493
0
VERTEX
8
Layer_1
6
CONTINUOUS
62
7
10
107
20
225.546
0
SEQEND
0
POLYLINE
8
Layer_1
6
CONTINUOUS
62
7
66
1
10
0
20
0
70
128
40
0
41
0
0
VERTEX
8
Layer_1
6
CONTINUOUS
62
7
10
107.187
20
227.537
0
VERTEX
8
Layer_1
6
CONTINUOUS
62
7
10
50.5306
20
233.492
0
SEQEND
0
POLYLINE
8
Layer_1
6
CONTINUOUS
62
7
66
1
10
0
20
0
70
128
40
0
41
0
0
VERTEX
8
Layer_1
6
CONTINUOUS
62
7
10
53.3656
20
235.205
0
VERTEX
8
Layer_1
6
CONTINUOUS
62
7
10
106.982
20
229.57
0
SEQEND
0
POLYLINE
8
Layer_1
6
CONTINUOUS
62
7
66
1
10
0
20
0
70
128
40
0
41
0
0
VERTEX
8
Layer_1
6
CONTINUOUS
62
7
10
107.205
20
231.557
0
VERTEX
8
Layer_1
6
CONTINUOUS
62
7
10
53.5541
20
237.196
0
SEQEND
0
POLYLINE
8
Layer_1
6
CONTINUOUS
62
7
66
1
10
0
20
0
70
128
40
0
41
0
0
VERTEX
8
Layer_1
6
CONTINUOUS
62
7
10
56.7712
20
238.869
0
VERTEX
8
Layer_1
6
CONTINUOUS
62
7
10
107.02
20
233.588
0
SEQEND
0
POLYLINE
8
Layer_1
6
CONTINUOUS
62
7
66
1
10
0
20
0
70
128
40
0
41
0
0
VERTEX
8
Layer_1
6
CONTINUOUS
62
7
10
107.153
20
235.585
0
VERTEX
8
Layer_1
6
CONTINUOUS
62
7
10
56.9493
20
240.861
0
SEQEND
0
POLYLINE
8
Layer_1
6
CONTINUOUS
62
7
66
1
10
0
20
0
70
128
40
0
41
0
0
VERTEX
8
Layer_1
6
CONTINUOUS
62
7
10
60.5938
20
242.489
0
VERTEX
8
Layer_1
6
CONTINUOUS
62
7
10
106.977
20
237.614
0
SEQEND
0
POLYLINE
8
Layer_1
6
CONTINUOUS
62
7
66
1
10
0
20
0
70
128
40
0
41
0
0
VERTEX
8
Layer_1
6
CONTINUOUS
62
7
10
107.204
20
239.601
0
VERTEX
8
Layer_1
6
CONTINUOUS
62
7
10
60.8347
20
244.475
0
SEQEND
0
POLYLINE
8
Layer_1
6
CONTINUOUS
62
7
66
1
10
0
20
0
70
128
40
0
41
0
0
VERTEX
8
Layer_1
6
CONTINUOUS
62
7
10
64.9935
20
246.049
0
VERTEX
8
Layer_1
6
CONTINUOUS
62
7
10
106.99
20
241.635
0
SEQEND
0
POLYLINE
8
Layer_1
6
CONTINUOUS
62
7
66
1
10
0
20
0
70
128
40
0
41
0
0
VERTEX
8
Layer_1
6
CONTINUOUS
62
7
10
107.192
20
243.625
0
VERTEX
8
Layer_1
6
CONTINUOUS
62
7
10
65.2505
20
248.033
0
SEQEND
0
POLYLINE
8
Layer_1
6
CONTINUOUS
62
7
66
1
10
0
20
0
70
128
40
0
41
0
0
VERTEX
8
Layer_1
6
CONTINUOUS
62
7
10
70.1198
20
249.532
0
VERTEX
8
Layer_1
6
CONTINUOUS
62
7
10
106.972
20
245.659
0
SEQEND
0
POLYLINE
8
Layer_1
6
CONTINUOUS
62
7
66
1
10
0
20
0
70
128
40
0
41
0
0
VERTEX
8
Layer_1
6
CONTINUOUS
62
7
10
107.208
20
247.645
0
VERTEX
8
Layer_1
6
CONTINUOUS
62
7
10
70.3531
20
251.519
0
SEQEND
0
POLYLINE
8
Layer_1
6
CONTINUOUS
62
7
66
1
10
0
20
0
70
128
40
0
41
0
0
VERTEX
8
Layer_1
6
CONTINUOUS
62
7
10
76.205
20
252.915
0
VERTEX
8
Layer_1
6
CONTINUOUS
62
7
10
106.985
20
249.679
0
SEQEND
0
POLYLINE
8
Layer_1
6
CONTINUOUS
62
7
66
1
10
0
20
0
70
128
40
0
41
0
0
VERTEX
8
Layer_1
6
CONTINUOUS
62
7
10
107.203
20
251.668
0
VERTEX
8
Layer_1
6
CONTINUOUS
62
7
10
76.4365
20
254.901
0
SEQEND
0
POLYLINE
8
Layer_1
6
CONTINUOUS
62
7
66
1
10
0
20
0
70
128
40
0
41
0
0
VERTEX
8
Layer_1
6
CONTINUOUS
62
7
10
83.7342
20
256.145
0
VERTEX
8
Layer_1
6
CONTINUOUS
62
7
10
106.997
20
253.7
0
SEQEND
0
POLYLINE
8
Layer_1
6
CONTINUOUS
62
7
66
1
10
0
20
0
70
128
40
0
41
0
0
VERTEX
8
Layer_1
6
CONTINUOUS
62
7
10
107.19
20
255.691
0
VERTEX
8
Layer_1
6
CONTINUOUS
62
7
10
83.9614
20
258.132
0
SEQEND
0
POLYLINE
8
Layer_1
6
CONTINUOUS
62
7
66
1
10
0
20
0
70
128
40
0
41
0
0
VERTEX
8
Layer_1
6
CONTINUOUS
62
7
10
94.0929
20
259.079
0
VERTEX
8
Layer_1
6
CONTINUOUS
62
7
10
106.98
20
257.724
0
SEQEND
0
POLYLINE
8
Layer_1
6
CONTINUOUS
62
7
66
1
10
0
20
0
70
128
40
0
41
0
0
VERTEX
8
Layer_1
6
CONTINUOUS
62
7
10
107.207
20
259.711
0
VERTEX
8
Layer_1
6
CONTINUOUS
62
7
10
94.347
20
261.063
0
SEQEND
0
ARC
8
Layer_1
6
CONTINUOUS
62
7
10
109
20
188.25
40
20.0141
50
63.3142
51
63.4542
0
ARC
8
Layer_1
6
CONTINUOUS
62
7
10
109
20
188.25
40
74.3009
50
9.53513
51
9.68594
0
ARC
8
Layer_1
6
CONTINUOUS
62
7
10
181.814
20
196.524
40
1.00507
50
269.429
51
100.934
0
ARC
8
Layer_1
6
CONTINUOUS
62
7
10
181.272
20
200.488
40
1.00507
50
267.238
51
4.02719
0
ARC
8
Layer_1
6
CONTINUOUS
62
7
10
181.272
20
200.488
40
1.00507
50
15.1939
51
97.456
0
ARC
8
Layer_1
6
CONTINUOUS
62
7
10
180.472
20
204.442
40
1.00507
50
273.33
51
87.0312
0
ARC
8
Layer_1
6
CONTINUOUS
62
7
10
179.477
20
208.367
40
1.00507
50
270.678
51
88.1027
0
ARC
8
Layer_1
6
CONTINUOUS
62
7
10
178.244
20
212.277
40
1.00507
50
272.479
51
87.259
0
ARC
8
Layer_1
6
CONTINUOUS
62
7
10
153.774
20
246.27
40
1.00507
50
280.34
51
88.8579
0
ARC
8
Layer_1
6
CONTINUOUS
62
7
10
158.12
20
242.635
40
1.00507
50
280.46
51
88.964
0
ARC
8
Layer_1
6
CONTINUOUS
62
7
10
148.717
20
249.841
40
1.00507
50
268.633
51
89.9297
0
ARC
8
Layer_1
6
CONTINUOUS
62
7
10
175.041
20
220.023
40
1.00507
50
281.012
51
89.5137
0
ARC
8
Layer_1
6
CONTINUOUS
62
7
10
173.046
20
223.863
40
1.00507
50
280.977
51
89.4757
0
ARC
8
Layer_1
6
CONTINUOUS
62
7
10
170.772
20
227.678
40
1.00507
50
281.637
51
90.2886
0
ARC
8
Layer_1
6
CONTINUOUS
62
7
10
168.191
20
231.472
40
1.00507
50
270.985
51
87.9191
0
ARC
8
Layer_1
6
CONTINUOUS
62
7
10
176.771
20
216.16
40
1.00507
50
270.028
51
88.5561
0
ARC
8
Layer_1
6
CONTINUOUS
62
7
10
124.889
20
259.8
40
1.00507
50
282.171
51
98.8519
0
ARC
8
Layer_1
6
CONTINUOUS
62
7
10
135.191
20
256.692
40
1.00507
50
279.042
51
87.9346
0
ARC
8
Layer_1
6
CONTINUOUS
62
7
10
142.705
20
253.326
40
1.00507
50
283.14
51
95.1958
0
ARC
8
Layer_1
6
CONTINUOUS
62
7
10
161.926
20
238.948
40
1.00507
50
282.64
51
92.1886
0
ARC
8
Layer_1
6
CONTINUOUS
62
7
10
165.253
20
235.227
40
1.00507
50
281.058
51
89.5642
0
ARC
8
Layer_1
6
CONTINUOUS
62
7
10
111.009
20
258.588
40
1.00507
50
100.105
51
268.661
0
ARC
8
Layer_1
6
CONTINUOUS
62
7
10
111.009
20
254.57
40
1.00507
50
98.1615
51
267.498
0
ARC
8
Layer_1
6
CONTINUOUS
62
7
10
111.009
20
250.558
40
1.00507
50
100.777
51
269.267
0
ARC
8
Layer_1
6
CONTINUOUS
62
7
10
111.006
20
246.544
40
1.00507
50
101.226
51
269.758
0
ARC
8
Layer_1
6
CONTINUOUS
62
7
10
111.006
20
242.529
40
1.00507
50
101.514
51
270.119
0
ARC
8
Layer_1
6
CONTINUOUS
62
7
10
111.006
20
238.514
40
1.00507
50
101.789
51
270.51
0
ARC
8
Layer_1
6
CONTINUOUS
62
7
10
111.009
20
234.497
40
1.00507
50
100.318
51
268.839
0
ARC
8
Layer_1
6
CONTINUOUS
62
7
10
111.009
20
230.482
40
1.00507
50
100.652
51
269.143
0
ARC
8
Layer_1
6
CONTINUOUS
62
7
10
111.009
20
226.467
40
1.00507
50
100.967
51
269.465
0
ARC
8
Layer_1
6
CONTINUOUS
62
7
10
111.009
20
222.452
40
1.00507
50
101.266
51
269.806
0
ARC
8
Layer_1
6
CONTINUOUS
62
7
10
111.009
20
218.435
40
1.00507
50
99.8153
51
268.438
0
ARC
8
Layer_1
6
CONTINUOUS
62
7
10
111.006
20
214.42
40
1.00507
50
100.345
51
268.862
0
ARC
8
Layer_1
6
CONTINUOUS
62
7
10
111.009
20
210.408
40
1.00507
50
102.089
51
270.999
0
ARC
8
Layer_1
6
CONTINUOUS
62
7
10
118.417
20
207.041
40
1.00507
50
102.285
51
271.369
0
ARC
8
Layer_1
6
CONTINUOUS
62
7
10
123.5
20
203.469
40
1.00507
50
101.252
51
269.789
0
ARC
8
Layer_1
6
CONTINUOUS
62
7
10
126.616
20
199.727
40
1.00507
50
101.499
51
270.101
0
ARC
8
Layer_1
6
CONTINUOUS
62
7
10
128.59
20
195.881
40
1.00507
50
100.032
51
268.603
0
ARC
8
Layer_1
6
CONTINUOUS
62
7
10
129.692
20
191.964
40
1.00507
50
100.659
51
269.151
0
ARC
8
Layer_1
6
CONTINUOUS
62
7
10
88.3734
20
192.311
40
1.00507
50
269.764
51
78.2537
0
ARC
8
Layer_1
6
CONTINUOUS
62
7
10
89.5451
20
196.21
40
1.00507
50
269.302
51
77.8252
0
ARC
8
Layer_1
6
CONTINUOUS
62
7
10
91.5798
20
200.019
40
1.00507
50
268.889
51
77.4927
0
ARC
8
Layer_1
6
CONTINUOUS
62
7
10
94.7558
20
203.707
40
1.00507
50
269.205
51
77.7426
0
ARC
8
Layer_1
6
CONTINUOUS
62
7
10
99.8756
20
207.189
40
1.00507
50
270.37
51
78.9342
0
ARC
8
Layer_1
6
CONTINUOUS
62
7
10
106.991
20
210.462
40
1.00507
50
270.992
51
79.8325
0
ARC
8
Layer_1
6
CONTINUOUS
62
7
10
106.994
20
214.485
40
1.00507
50
269.942
51
78.4379
0
ARC
8
Layer_1
6
CONTINUOUS
62
7
10
106.994
20
218.506
40
1.00507
50
270.596
51
79.2313
0
ARC
8
Layer_1
6
CONTINUOUS
62
7
10
106.988
20
222.533
40
1.00507
50
268.055
51
76.9423
0
ARC
8
Layer_1
6
CONTINUOUS
62
7
10
106.994
20
226.551
40
1.00507
50
270.34
51
78.8966
0
ARC
8
Layer_1
6
CONTINUOUS
62
7
10
106.994
20
230.575
40
1.00507
50
269.357
51
77.8724
0
ARC
8
Layer_1
6
CONTINUOUS
62
7
10
106.994
20
234.592
40
1.00507
50
271.524
51
80.8921
0
ARC
8
Layer_1
6
CONTINUOUS
62
7
10
106.991
20
238.619
40
1.00507
50
269.24
51
77.7725
0
ARC
8
Layer_1
6
CONTINUOUS
62
7
10
106.991
20
242.64
40
1.00507
50
269.972
51
78.4699
0
ARC
8
Layer_1
6
CONTINUOUS
62
7
10
106.991
20
246.664
40
1.00507
50
268.915
51
77.5124
0
ARC
8
Layer_1
6
CONTINUOUS
62
7
10
106.994
20
250.684
40
1.00507
50
269.503
51
78.0035
0
ARC
8
Layer_1
6
CONTINUOUS
62
7
10
106.994
20
254.705
40
1.00507
50
270.204
51
78.7312
0
ARC
8
Layer_1
6
CONTINUOUS
62
7
10
106.994
20
258.729
40
1.00507
50
269.194
51
77.7339
0
ARC
8
Layer_1
6
CONTINUOUS
62
7
10
94.3174
20
260.058
40
1.00507
50
88.3098
51
257.095
0
ARC
8
Layer_1
6
CONTINUOUS
62
7
10
83.9476
20
257.127
40
1.00507
50
89.2081
51
257.745
0
ARC
8
Layer_1
6
CONTINUOUS
62
7
10
76.4202
20
253.896
40
1.00507
50
89.072
51
257.635
0
ARC
8
Layer_1
6
CONTINUOUS
62
7
10
70.3358
20
250.514
40
1.00507
50
89.0138
51
257.589
0
ARC
8
Layer_1
6
CONTINUOUS
62
7
10
65.219
20
247.028
40
1.00507
50
88.2059
51
257.031
0
ARC
8
Layer_1
6
CONTINUOUS
62
7
10
60.8131
20
243.47
40
1.00507
50
88.764
51
257.401
0
ARC
8
Layer_1
6
CONTINUOUS
62
7
10
56.9594
20
239.856
40
1.00507
50
90.5778
51
259.206
0
ARC
8
Layer_1
6
CONTINUOUS
62
7
10
53.5597
20
236.191
40
1.00507
50
90.3168
51
258.868
0
ARC
8
Layer_1
6
CONTINUOUS
62
7
10
50.5624
20
232.487
40
1.00507
50
91.8149
51
261.718
0
ARC
8
Layer_1
6
CONTINUOUS
62
7
10
47.912
20
228.741
40
1.00507
50
90.3862
51
258.954
0
ARC
8
Layer_1
6
CONTINUOUS
62
7
10
45.5656
20
224.964
40
1.00507
50
89.779
51
258.269
0
ARC
8
Layer_1
6
CONTINUOUS
62
7
10
43.5103
20
221.158
40
1.00507
50
89.4872
51
257.989
0
ARC
8
Layer_1
6
CONTINUOUS
62
7
10
41.7248
20
217.325
40
1.00507
50
90.6441
51
259.299
0
ARC
8
Layer_1
6
CONTINUOUS
62
7
10
40.1833
20
213.468
40
1.00507
50
91.6116
51
261.113
0
ARC
8
Layer_1
6
CONTINUOUS
62
7
10
38.8817
20
209.58
40
1.00507
50
90.3763
51
258.942
0
ARC
8
Layer_1
6
CONTINUOUS
62
7
10
37.8069
20
205.666
40
1.00507
50
87.3816
51
256.595
0
ARC
8
Layer_1
6
CONTINUOUS
62
7
10
36.9591
20
201.735
40
1.00507
50
89.0945
51
257.652
0
ARC
8
Layer_1
6
CONTINUOUS
62
7
10
36.3297
20
197.783
40
1.00507
50
91.1084
51
260.034
0
POLYLINE
8
Layer_1
6
CONTINUOUS
62
7
66
1
10
0
20
0
70
128
40
0
41
0
0
VERTEX
8
Layer_1
6
CONTINUOUS
62
7
10
181.83
20
178.971
0
VERTEX
8
Layer_1
6
CONTINUOUS
62
7
10
129.506
20
183.549
0
SEQEND
0
POLYLINE
8
Layer_1
6
CONTINUOUS
62
7
66
1
10
0
20
0
70
128
40
0
41
0
0
VERTEX
8
Layer_1
6
CONTINUOUS
62
7
10
129.677
20
185.541
0
VERTEX
8
Layer_1
6
CONTINUOUS
62
7
10
181.998
20
180.964
0
SEQEND
0
POLYLINE
8
Layer_1
6
CONTINUOUS
62
7
66
1
10
0
20
0
70
128
40
0
41
0
0
VERTEX
8
Layer_1
6
CONTINUOUS
62
7
10
181.227
20
175.008
0
VERTEX
8
Layer_1
6
CONTINUOUS
62
7
10
128.415
20
179.629
0
SEQEND
0
POLYLINE
8
Layer_1
6
CONTINUOUS
62
7
66
1
10
0
20
0
70
128
40
0
41
0
0
VERTEX
8
Layer_1
6
CONTINUOUS
62
7
10
128.565
20
181.623
0
VERTEX
8
Layer_1
6
CONTINUOUS
62
7
10
181.223
20
177.016
0
SEQEND
0
POLYLINE
8
Layer_1
6
CONTINUOUS
62
7
66
1
10
0
20
0
70
128
40
0
41
0
0
VERTEX
8
Layer_1
6
CONTINUOUS
62
7
10
180.525
20
171.055
0
VERTEX
8
Layer_1
6
CONTINUOUS
62
7
10
126.415
20
175.789
0
SEQEND
0
POLYLINE
8
Layer_1
6
CONTINUOUS
62
7
66
1
10
0
20
0
70
128
40
0
41
0
0
VERTEX
8
Layer_1
6
CONTINUOUS
62
7
10
126.617
20
177.779
0
VERTEX
8
Layer_1
6
CONTINUOUS
62
7
10
180.589
20
173.057
0
SEQEND
0
POLYLINE
8
Layer_1
6
CONTINUOUS
62
7
66
1
10
0
20
0
70
128
40
0
41
0
0
VERTEX
8
Layer_1
6
CONTINUOUS
62
7
10
179.511
20
167.128
0
VERTEX
8
Layer_1
6
CONTINUOUS
62
7
10
123.304
20
172.045
0
SEQEND
0
POLYLINE
8
Layer_1
6
CONTINUOUS
62
7
66
1
10
0
20
0
70
128
40
0
41
0
0
VERTEX
8
Layer_1
6
CONTINUOUS
62
7
10
123.496
20
174.036
0
VERTEX
8
Layer_1
6
CONTINUOUS
62
7
10
179.64
20
169.124
0
SEQEND
0
POLYLINE
8
Layer_1
6
CONTINUOUS
62
7
66
1
10
0
20
0
70
128
40
0
41
0
0
VERTEX
8
Layer_1
6
CONTINUOUS
62
7
10
178.292
20
163.219
0
VERTEX
8
Layer_1
6
CONTINUOUS
62
7
10
118.203
20
168.476
0
SEQEND
0
POLYLINE
8
Layer_1
6
CONTINUOUS
62
7
66
1
10
0
20
0
70
128
40
0
41
0
0
VERTEX
8
Layer_1
6
CONTINUOUS
62
7
10
118.441
20
170.463
0
VERTEX
8
Layer_1
6
CONTINUOUS
62
7
10
178.376
20
165.22
0
SEQEND
0
POLYLINE
8
Layer_1
6
CONTINUOUS
62
7
66
1
10
0
20
0
70
128
40
0
41
0
0
VERTEX
8
Layer_1
6
CONTINUOUS
62
7
10
176.797
20
159.335
0
VERTEX
8
Layer_1
6
CONTINUOUS
62
7
10
110.799
20
165.109
0
SEQEND
0
POLYLINE
8
Layer_1
6
CONTINUOUS
62
7
66
1
10
0
20
0
70
128
40
0
41
0
0
VERTEX
8
Layer_1
6
CONTINUOUS
62
7
10
111.027
20
167.097
0
VERTEX
8
Layer_1
6
CONTINUOUS
62
7
10
176.772
20
161.345
0
SEQEND
0
POLYLINE
8
Layer_1
6
CONTINUOUS
62
7
66
1
10
0
20
0
70
128
40
0
41
0
0
VERTEX
8
Layer_1
6
CONTINUOUS
62
7
10
175.05
20
155.472
0
VERTEX
8
Layer_1
6
CONTINUOUS
62
7
10
110.826
20
161.091
0
SEQEND
0
POLYLINE
8
Layer_1
6
CONTINUOUS
62
7
66
1
10
0
20
0
70
128
40
0
41
0
0
VERTEX
8
Layer_1
6
CONTINUOUS
62
7
10
110.986
20
163.085
0
VERTEX
8
Layer_1
6
CONTINUOUS
62
7
10
175.233
20
157.464
0
SEQEND
0
POLYLINE
8
Layer_1
6
CONTINUOUS
62
7
66
1
10
0
20
0
70
128
40
0
41
0
0
VERTEX
8
Layer_1
6
CONTINUOUS
62
7
10
173.055
20
151.632
0
VERTEX
8
Layer_1
6
CONTINUOUS
62
7
10
110.838
20
157.075
0
SEQEND
0
POLYLINE
8
Layer_1
6
CONTINUOUS
62
7
66
1
10
0
20
0
70
128
40
0
41
0
0
VERTEX
8
Layer_1
6
CONTINUOUS
62
7
10
110.982
20
159.07
0
VERTEX
8
Layer_1
6
CONTINUOUS
62
7
10
173.237
20
153.623
0
SEQEND
0
POLYLINE
8
Layer_1
6
CONTINUOUS
62
7
66
1
10
0
20
0
70
128
40
0
41
0
0
VERTEX
8
Layer_1
6
CONTINUOUS
62
7
10
170.767
20
147.817
0
VERTEX
8
Layer_1
6
CONTINUOUS
62
7
10
110.813
20
153.062
0
SEQEND
0
POLYLINE
8
Layer_1
6
CONTINUOUS
62
7
66
1
10
0
20
0
70
128
40
0
41
0
0
VERTEX
8
Layer_1
6
CONTINUOUS
62
7
10
111.006
20
155.053
0
VERTEX
8
Layer_1
6
CONTINUOUS
62
7
10
170.975
20
149.806
0
SEQEND
0
POLYLINE
8
Layer_1
6
CONTINUOUS
62
7
66
1
10
0
20
0
70
128
40
0
41
0
0
VERTEX
8
Layer_1
6
CONTINUOUS
62
7
10
168.227
20
144.024
0
VERTEX
8
Layer_1
6
CONTINUOUS
62
7
10
110.818
20
149.046
0
SEQEND
0
POLYLINE
8
Layer_1
6
CONTINUOUS
62
7
66
1
10
0
20
0
70
128
40
0
41
0
0
VERTEX
8
Layer_1
6
CONTINUOUS
62
7
10
111
20
151.038
0
VERTEX
8
Layer_1
6
CONTINUOUS
62
7
10
168.208
20
146.033
0
SEQEND
0
POLYLINE
8
Layer_1
6
CONTINUOUS
62
7
66
1
10
0
20
0
70
128
40
0
41
0
0
VERTEX
8
Layer_1
6
CONTINUOUS
62
7
10
165.261
20
140.268
0
VERTEX
8
Layer_1
6
CONTINUOUS
62
7
10
110.823
20
145.03
0
SEQEND
0
POLYLINE
8
Layer_1
6
CONTINUOUS
62
7
66
1
10
0
20
0
70
128
40
0
41
0
0
VERTEX
8
Layer_1
6
CONTINUOUS
62
7
10
110.994
20
147.023
0
VERTEX
8
Layer_1
6
CONTINUOUS
62
7
10
165.446
20
142.259
0
SEQEND
0
POLYLINE
8
Layer_1
6
CONTINUOUS
62
7
66
1
10
0
20
0
70
128
40
0
41
0
0
VERTEX
8
Layer_1
6
CONTINUOUS
62
7
10
161.888
20
136.548
0
VERTEX
8
Layer_1
6
CONTINUOUS
62
7
10
110.829
20
141.015
0
SEQEND
0
POLYLINE
8
Layer_1
6
CONTINUOUS
62
7
66
1
10
0
20
0
70
128
40
0
41
0
0
VERTEX
8
Layer_1
6
CONTINUOUS
62
7
10
110.989
20
143.008
0
VERTEX
8
Layer_1
6
CONTINUOUS
62
7
10
162.146
20
138.533
0
SEQEND
0
POLYLINE
8
Layer_1
6
CONTINUOUS
62
7
66
1
10
0
20
0
70
128
40
0
41
0
0
VERTEX
8
Layer_1
6
CONTINUOUS
62
7
10
158.138
20
132.86
0
VERTEX
8
Layer_1
6
CONTINUOUS
62
7
10
110.801
20
137.002
0
SEQEND
0
POLYLINE
8
Layer_1
6
CONTINUOUS
62
7
66
1
10
0
20
0
70
128
40
0
41
0
0
VERTEX
8
Layer_1
6
CONTINUOUS
62
7
10
111.015
20
138.991
0
VERTEX
8
Layer_1
6
CONTINUOUS
62
7
10
158.302
20
134.854
0
SEQEND
0
POLYLINE
8
Layer_1
6
CONTINUOUS
62
7
66
1
10
0
20
0
70
128
40
0
41
0
0
VERTEX
8
Layer_1
6
CONTINUOUS
62
7
10
153.794
20
129.225
0
VERTEX
8
Layer_1
6
CONTINUOUS
62
7
10
110.806
20
132.986
0
SEQEND
0
POLYLINE
8
Layer_1
6
CONTINUOUS
62
7
66
1
10
0
20
0
70
128
40
0
41
0
0
VERTEX
8
Layer_1
6
CONTINUOUS
62
7
10
111.008
20
134.976
0
VERTEX
8
Layer_1
6
CONTINUOUS
62
7
10
153.954
20
131.219
0
SEQEND
0
POLYLINE
8
Layer_1
6
CONTINUOUS
62
7
66
1
10
0
20
0
70
128
40
0
41
0
0
VERTEX
8
Layer_1
6
CONTINUOUS
62
7
10
148.718
20
125.654
0
VERTEX
8
Layer_1
6
CONTINUOUS
62
7
10
110.811
20
128.97
0
SEQEND
0
POLYLINE
8
Layer_1
6
CONTINUOUS
62
7
66
1
10
0
20
0
70
128
40
0
41
0
0
VERTEX
8
Layer_1
6
CONTINUOUS
62
7
10
111.002
20
130.961
0
VERTEX
8
Layer_1
6
CONTINUOUS
62
7
10
148.693
20
127.664
0
SEQEND
0
POLYLINE
8
Layer_1
6
CONTINUOUS
62
7
66
1
10
0
20
0
70
128
40
0
41
0
0
VERTEX
8
Layer_1
6
CONTINUOUS
62
7
10
142.621
20
122.172
0
VERTEX
8
Layer_1
6
CONTINUOUS
62
7
10
110.821
20
124.954
0
SEQEND
0
POLYLINE
8
Layer_1
6
CONTINUOUS
62
7
66
1
10
0
20
0
70
128
40
0
41
0
0
VERTEX
8
Layer_1
6
CONTINUOUS
62
7
10
110.996
20
126.947
0
VERTEX
8
Layer_1
6
CONTINUOUS
62
7
10
142.934
20
124.152
0
SEQEND
0
POLYLINE
8
Layer_1
6
CONTINUOUS
62
7
66
1
10
0
20
0
70
128
40
0
41
0
0
VERTEX
8
Layer_1
6
CONTINUOUS
62
7
10
135.227
20
118.804
0
VERTEX
8
Layer_1
6
CONTINUOUS
62
7
10
110.867
20
120.935
0
SEQEND
0
POLYLINE
8
Layer_1
6
CONTINUOUS
62
7
66
1
10
0
20
0
70
128
40
0
41
0
0
VERTEX
8
Layer_1
6
CONTINUOUS
62
7
10
110.965
20
122.934
0
VERTEX
8
Layer_1
6
CONTINUOUS
62
7
10
135.349
20
120.801
0
SEQEND
0
POLYLINE
8
Layer_1
6
CONTINUOUS
62
7
66
1
10
0
20
0
70
128
40
0
41
0
0
VERTEX
8
Layer_1
6
CONTINUOUS
62
7
10
124.869
20
115.695
0
VERTEX
8
Layer_1
6
CONTINUOUS
62
7
10
110.833
20
116.923
0
SEQEND
0
POLYLINE
8
Layer_1
6
CONTINUOUS
62
7
66
1
10
0
20
0
70
128
40
0
41
0
0
VERTEX
8
Layer_1
6
CONTINUOUS
62
7
10
110.986
20
118.917
0
VERTEX
8
Layer_1
6
CONTINUOUS
62
7
10
125.101
20
117.682
0
SEQEND
0
POLYLINE
8
Layer_1
6
CONTINUOUS
62
7
66
1
10
0
20
0
70
128
40
0
41
0
0
VERTEX
8
Layer_1
6
CONTINUOUS
62
7
10
36.1558
20
179.707
0
VERTEX
8
Layer_1
6
CONTINUOUS
62
7
10
88.3693
20
185.194
0
SEQEND
0
POLYLINE
8
Layer_1
6
CONTINUOUS
62
7
66
1
10
0
20
0
70
128
40
0
41
0
0
VERTEX
8
Layer_1
6
CONTINUOUS
62
7
10
88.578
20
183.205
0
VERTEX
8
Layer_1
6
CONTINUOUS
62
7
10
36.3103
20
177.712
0
SEQEND
0
POLYLINE
8
Layer_1
6
CONTINUOUS
62
7
66
1
10
0
20
0
70
128
40
0
41
0
0
VERTEX
8
Layer_1
6
CONTINUOUS
62
7
10
36.7442
20
175.746
0
VERTEX
8
Layer_1
6
CONTINUOUS
62
7
10
89.5329
20
181.295
0
SEQEND
0
POLYLINE
8
Layer_1
6
CONTINUOUS
62
7
66
1
10
0
20
0
70
128
40
0
41
0
0
VERTEX
8
Layer_1
6
CONTINUOUS
62
7
10
89.7571
20
179.307
0
VERTEX
8
Layer_1
6
CONTINUOUS
62
7
10
36.975
20
173.76
0
SEQEND
0
POLYLINE
8
Layer_1
6
CONTINUOUS
62
7
66
1
10
0
20
0
70
128
40
0
41
0
0
VERTEX
8
Layer_1
6
CONTINUOUS
62
7
10
37.5739
20
171.812
0
VERTEX
8
Layer_1
6
CONTINUOUS
62
7
10
91.5603
20
177.486
0
SEQEND
0
POLYLINE
8
Layer_1
6
CONTINUOUS
62
7
66
1
10
0
20
0
70
128
40
0
41
0
0
VERTEX
8
Layer_1
6
CONTINUOUS
62
7
10
91.7974
20
175.5
0
VERTEX
8
Layer_1
6
CONTINUOUS
62
7
10
37.8529
20
169.83
0
SEQEND
0
POLYLINE
8
Layer_1
6
CONTINUOUS
62
7
66
1
10
0
20
0
70
128
40
0
41
0
0
VERTEX
8
Layer_1
6
CONTINUOUS
62
7
10
38.6889
20
167.907
0
VERTEX
8
Layer_1
6
CONTINUOUS
62
7
10
94.7418
20
173.798
0
SEQEND
0
POLYLINE
8
Layer_1
6
CONTINUOUS
62
7
66
1
10
0
20
0
70
128
40
0
41
0
0
VERTEX
8
Layer_1
6
CONTINUOUS
62
7
10
94.9692
20
171.811
0
VERTEX
8
Layer_1
6
CONTINUOUS
62
7
10
38.8751
20
165.915
0
SEQEND
0
POLYLINE
8
Layer_1
6
CONTINUOUS
62
7
66
1
10
0
20
0
70
128
40
0
41
0
0
VERTEX
8
Layer_1
6
CONTINUOUS
62
7
10
40.0281
20
164.025
0
VERTEX
8
Layer_1
6
CONTINUOUS
62
7
10
99.8821
20
170.316
0
SEQEND
0
POLYLINE
8
Layer_1
6
CONTINUOUS
62
7
66
1
10
0
20
0
70
128
40
0
41
0
0
VERTEX
8
Layer_1
6
CONTINUOUS
62
7
10
100.069
20
168.325
0
VERTEX
8
Layer_1
6
CONTINUOUS
62
7
10
40.1551
20
162.028
0
SEQEND
0
POLYLINE
8
Layer_1
6
CONTINUOUS
62
7
66
1
10
0
20
0
70
128
40
0
41
0
0
VERTEX
8
Layer_1
6
CONTINUOUS
62
7
10
41.5382
20
160.162
0
VERTEX
8
Layer_1
6
CONTINUOUS
62
7
10
107.008
20
167.043
0
SEQEND
0
POLYLINE
8
Layer_1
6
CONTINUOUS
62
7
66
1
10
0
20
0
70
128
40
0
41
0
0
VERTEX
8
Layer_1
6
CONTINUOUS
62
7
10
107.168
20
165.049
0
VERTEX
8
Layer_1
6
CONTINUOUS
62
7
10
41.7135
20
158.17
0
SEQEND
0
POLYLINE
8
Layer_1
6
CONTINUOUS
62
7
66
1
10
0
20
0
70
128
40
0
41
0
0
VERTEX
8
Layer_1
6
CONTINUOUS
62
7
10
43.3011
20
156.325
0
VERTEX
8
Layer_1
6
CONTINUOUS
62
7
10
106.993
20
163.02
0
SEQEND
0
POLYLINE
8
Layer_1
6
CONTINUOUS
62
7
66
1
10
0
20
0
70
128
40
0
41
0
0
VERTEX
8
Layer_1
6
CONTINUOUS
62
7
10
107.195
20
161.03
0
VERTEX
8
Layer_1
6
CONTINUOUS
62
7
10
43.5193
20
154.337
0
SEQEND
0
POLYLINE
8
Layer_1
6
CONTINUOUS
62
7
66
1
10
0
20
0
70
128
40
0
41
0
0
VERTEX
8
Layer_1
6
CONTINUOUS
62
7
10
45.3612
20
152.52
0
VERTEX
8
Layer_1
6
CONTINUOUS
62
7
10
107.004
20
158.999
0
SEQEND
0
POLYLINE
8
Layer_1
6
CONTINUOUS
62
7
66
1
10
0
20
0
70
128
40
0
41
0
0
VERTEX
8
Layer_1
6
CONTINUOUS
62
7
10
107.182
20
157.006
0
VERTEX
8
Layer_1
6
CONTINUOUS
62
7
10
45.5694
20
150.531
0
SEQEND
0
POLYLINE
8
Layer_1
6
CONTINUOUS
62
7
66
1
10
0
20
0
70
128
40
0
41
0
0
VERTEX
8
Layer_1
6
CONTINUOUS
62
7
10
47.7194
20
148.746
0
VERTEX
8
Layer_1
6
CONTINUOUS
62
7
10
106.954
20
154.971
0
SEQEND
0
POLYLINE
8
Layer_1
6
CONTINUOUS
62
7
66
1
10
0
20
0
70
128
40
0
41
0
0
VERTEX
8
Layer_1
6
CONTINUOUS
62
7
10
107.215
20
152.988
0
VERTEX
8
Layer_1
6
CONTINUOUS
62
7
10
47.9052
20
146.754
0
SEQEND
0
POLYLINE
8
Layer_1
6
CONTINUOUS
62
7
66
1
10
0
20
0
70
128
40
0
41
0
0
VERTEX
8
Layer_1
6
CONTINUOUS
62
7
10
50.4176
20
145.007
0
VERTEX
8
Layer_1
6
CONTINUOUS
62
7
10
107
20
150.954
0
SEQEND
0
POLYLINE
8
Layer_1
6
CONTINUOUS
62
7
66
1
10
0
20
0
70
128
40
0
41
0
0
VERTEX
8
Layer_1
6
CONTINUOUS
62
7
10
107.187
20
148.963
0
VERTEX
8
Layer_1
6
CONTINUOUS
62
7
10
50.5306
20
143.008
0
SEQEND
0
POLYLINE
8
Layer_1
6
CONTINUOUS
62
7
66
1
10
0
20
0
70
128
40
0
41
0
0
VERTEX
8
Layer_1
6
CONTINUOUS
62
7
10
53.3656
20
141.295
0
VERTEX
8
Layer_1
6
CONTINUOUS
62
7
10
106.982
20
146.93
0
SEQEND
0
POLYLINE
8
Layer_1
6
CONTINUOUS
62
7
66
1
10
0
20
0
70
128
40
0
41
0
0
VERTEX
8
Layer_1
6
CONTINUOUS
62
7
10
107.205
20
144.943
0
VERTEX
8
Layer_1
6
CONTINUOUS
62
7
10
53.5541
20
139.304
0
SEQEND
0
POLYLINE
8
Layer_1
6
CONTINUOUS
62
7
66
1
10
0
20
0
70
128
40
0
41
0
0
VERTEX
8
Layer_1
6
CONTINUOUS
62
7
10
56.7712
20
137.631
0
VERTEX
8
Layer_1
6
CONTINUOUS
62
7
10
107.02
20
142.912
0
SEQEND
0
POLYLINE
8
Layer_1
6
CONTINUOUS
62
7
66
1
10
0
20
0
70
128
40
0
41
0
0
VERTEX
8
Layer_1
6
CONTINUOUS
62
7
10
107.153
20
140.915
0
VERTEX
8
Layer_1
6
CONTINUOUS
62
7
10
56.9493
20
135.639
0
SEQEND
0
POLYLINE
8
Layer_1
6
CONTINUOUS
62
7
66
1
10
0
20
0
70
128
40
0
41
0
0
VERTEX
8
Layer_1
6
CONTINUOUS
62
7
10
60.5938
20
134.011
0
VERTEX
8
Layer_1
6
CONTINUOUS
62
7
10
106.977
20
138.886
0
SEQEND
0
POLYLINE
8
Layer_1
6
CONTINUOUS
62
7
66
1
10
0
20
0
70
128
40
0
41
0
0
VERTEX
8
Layer_1
6
CONTINUOUS
62
7
10
107.204
20
136.899
0
VERTEX
8
Layer_1
6
CONTINUOUS
62
7
10
60.8347
20
132.025
0
SEQEND
0
POLYLINE
8
Layer_1
6
CONTINUOUS
62
7
66
1
10
0
20
0
70
128
40
0
41
0
0
VERTEX
8
Layer_1
6
CONTINUOUS
62
7
10
64.9935
20
130.451
0
VERTEX
8
Layer_1
6
CONTINUOUS
62
7
10
106.99
20
134.865
0
SEQEND
0
POLYLINE
8
Layer_1
6
CONTINUOUS
62
7
66
1
10
0
20
0
70
128
40
0
41
0
0
VERTEX
8
Layer_1
6
CONTINUOUS
62
7
10
107.192
20
132.875
0
VERTEX
8
Layer_1
6
CONTINUOUS
62
7
10
65.2505
20
128.467
0
SEQEND
0
POLYLINE
8
Layer_1
6
CONTINUOUS
62
7
66
1
10
0
20
0
70
128
40
0
41
0
0
VERTEX
8
Layer_1
6
CONTINUOUS
62
7
10
70.1198
20
126.968
0
VERTEX
8
Layer_1
6
CONTINUOUS
62
7
10
106.972
20
130.841
0
SEQEND
0
POLYLINE
8
Layer_1
6
CONTINUOUS
62
7
66
1
10
0
20
0
70
128
40
0
41
0
0
VERTEX
8
Layer_1
6
CONTINUOUS
62
7
10
107.208
20
128.855
0
VERTEX
8
Layer_1
6
CONTINUOUS
62
7
10
70.3531
20
124.981
0
SEQEND
0
POLYLINE
8
Layer_1
6
CONTINUOUS
62
7
66
1
10
0
20
0
70
128
40
0
41
0
0
VERTEX
8
Layer_1
6
CONTINUOUS
62
7
10
76.205
20
123.585
0
VERTEX
8
Layer_1
6
CONTINUOUS
62
7
10
106.985
20
126.821
0
SEQEND
0
POLYLINE
8
Layer_1
6
CONTINUOUS
62
7
66
1
10
0
20
0
70
128
40
0
41
0
0
VERTEX
8
Layer_1
6
CONTINUOUS
62
7
10
107.203
20
124.832
0
VERTEX
8
Layer_1
6
CONTINUOUS
62
7
10
76.4365
20
121.599
0
SEQEND
0
POLYLINE
8
Layer_1
6
CONTINUOUS
62
7
66
1
10
0
20
0
70
128
40
0
41
0
0
VERTEX
8
Layer_1
6
CONTINUOUS
62
7
10
83.7342
20
120.355
0
VERTEX
8
Layer_1
6
CONTINUOUS
62
7
10
106.997
20
122.8
0
SEQEND
0
POLYLINE
8
Layer_1
6
CONTINUOUS
62
7
66
1
10
0
20
0
70
128
40
0
41
0
0
VERTEX
8
Layer_1
6
CONTINUOUS
62
7
10
107.19
20
120.809
0
VERTEX
8
Layer_1
6
CONTINUOUS
62
7
10
83.9614
20
118.368
0
SEQEND
0
POLYLINE
8
Layer_1
6
CONTINUOUS
62
7
66
1
10
0
20
0
70
128
40
0
41
0
0
VERTEX
8
Layer_1
6
CONTINUOUS
62
7
10
94.0929
20
117.421
0
VERTEX
8
Layer_1
6
CONTINUOUS
62
7
10
106.98
20
118.776
0
SEQEND
0
POLYLINE
8
Layer_1
6
CONTINUOUS
62
7
66
1
10
0
20
0
70
128
40
0
41
0
0
VERTEX
8
Layer_1
6
CONTINUOUS
62
7
10
107.207
20
116.789
0
VERTEX
8
Layer_1
6
CONTINUOUS
62
7
10
94.347
20
115.437
0
SEQEND
0
ARC
8
Layer_1
6
CONTINUOUS
62
7
10
109
20
188.25
40
20.0141
50
296.546
51
296.686
0
ARC
8
Layer_1
6
CONTINUOUS
62
7
10
109
20
188.25
40
74.3009
50
350.314
51
350.465
0
ARC
8
Layer_1
6
CONTINUOUS
62
7
10
181.814
20
179.976
40
1.00507
50
259.066
51
90.571
0
ARC
8
Layer_1
6
CONTINUOUS
62
7
10
181.272
20
176.012
40
1.00507
50
355.973
51
92.7619
0
ARC
8
Layer_1
6
CONTINUOUS
62
7
10
181.272
20
176.012
40
1.00507
50
262.544
51
344.806
0
ARC
8
Layer_1
6
CONTINUOUS
62
7
10
180.472
20
172.058
40
1.00507
50
272.969
51
86.6696
0
ARC
8
Layer_1
6
CONTINUOUS
62
7
10
179.477
20
168.133
40
1.00507
50
271.897
51
89.322
0
ARC
8
Layer_1
6
CONTINUOUS
62
7
10
178.244
20
164.223
40
1.00507
50
272.741
51
87.5209
0
ARC
8
Layer_1
6
CONTINUOUS
62
7
10
153.774
20
130.23
40
1.00507
50
271.142
51
79.6598
0
ARC
8
Layer_1
6
CONTINUOUS
62
7
10
158.12
20
133.865
40
1.00507
50
271.036
51
79.5403
0
ARC
8
Layer_1
6
CONTINUOUS
62
7
10
148.717
20
126.659
40
1.00507
50
270.07
51
91.3668
0
ARC
8
Layer_1
6
CONTINUOUS
62
7
10
175.041
20
156.477
40
1.00507
50
270.486
51
78.9881
0
ARC
8
Layer_1
6
CONTINUOUS
62
7
10
173.046
20
152.637
40
1.00507
50
270.524
51
79.023
0
ARC
8
Layer_1
6
CONTINUOUS
62
7
10
170.772
20
148.822
40
1.00507
50
269.711
51
78.3629
0
ARC
8
Layer_1
6
CONTINUOUS
62
7
10
168.191
20
145.028
40
1.00507
50
272.081
51
89.0146
0
ARC
8
Layer_1
6
CONTINUOUS
62
7
10
176.771
20
160.34
40
1.00507
50
271.444
51
89.972
0
ARC
8
Layer_1
6
CONTINUOUS
62
7
10
124.889
20
116.7
40
1.00507
50
261.148
51
77.8291
0
ARC
8
Layer_1
6
CONTINUOUS
62
7
10
135.191
20
119.808
40
1.00507
50
272.065
51
80.9582
0
ARC
8
Layer_1
6
CONTINUOUS
62
7
10
142.705
20
123.174
40
1.00507
50
264.804
51
76.86
0
ARC
8
Layer_1
6
CONTINUOUS
62
7
10
161.926
20
137.552
40
1.00507
50
267.811
51
77.36
0
ARC
8
Layer_1
6
CONTINUOUS
62
7
10
165.253
20
141.273
40
1.00507
50
270.436
51
78.9424
0
ARC
8
Layer_1
6
CONTINUOUS
62
7
10
111.009
20
117.912
40
1.00507
50
91.3392
51
259.895
0
ARC
8
Layer_1
6
CONTINUOUS
62
7
10
111.009
20
121.93
40
1.00507
50
92.5016
51
261.839
0
ARC
8
Layer_1
6
CONTINUOUS
62
7
10
111.009
20
125.942
40
1.00507
50
90.7327
51
259.223
0
ARC
8
Layer_1
6
CONTINUOUS
62
7
10
111.006
20
129.956
40
1.00507
50
90.242
51
258.774
0
ARC
8
Layer_1
6
CONTINUOUS
62
7
10
111.006
20
133.971
40
1.00507
50
89.8806
51
258.486
0
ARC
8
Layer_1
6
CONTINUOUS
62
7
10
111.006
20
137.986
40
1.00507
50
89.4902
51
258.211
0
ARC
8
Layer_1
6
CONTINUOUS
62
7
10
111.009
20
142.003
40
1.00507
50
91.1613
51
259.682
0
ARC
8
Layer_1
6
CONTINUOUS
62
7
10
111.009
20
146.018
40
1.00507
50
90.8567
51
259.348
0
ARC
8
Layer_1
6
CONTINUOUS
62
7
10
111.009
20
150.033
40
1.00507
50
90.5354
51
259.033
0
ARC
8
Layer_1
6
CONTINUOUS
62
7
10
111.009
20
154.048
40
1.00507
50
90.1944
51
258.734
0
ARC
8
Layer_1
6
CONTINUOUS
62
7
10
111.009
20
158.065
40
1.00507
50
91.562
51
260.185
0
ARC
8
Layer_1
6
CONTINUOUS
62
7
10
111.006
20
162.08
40
1.00507
50
91.1377
51
259.655
0
ARC
8
Layer_1
6
CONTINUOUS
62
7
10
111.009
20
166.092
40
1.00507
50
89.0011
51
257.911
0
ARC
8
Layer_1
6
CONTINUOUS
62
7
10
118.417
20
169.459
40
1.00507
50
88.6314
51
257.715
0
ARC
8
Layer_1
6
CONTINUOUS
62
7
10
123.5
20
173.031
40
1.00507
50
90.2107
51
258.748
0
ARC
8
Layer_1
6
CONTINUOUS
62
7
10
126.616
20
176.773
40
1.00507
50
89.8992
51
258.501
0
ARC
8
Layer_1
6
CONTINUOUS
62
7
10
128.59
20
180.619
40
1.00507
50
91.3968
51
259.968
0
ARC
8
Layer_1
6
CONTINUOUS
62
7
10
129.692
20
184.536
40
1.00507
50
90.8494
51
259.341
0
ARC
8
Layer_1
6
CONTINUOUS
62
7
10
88.3734
20
184.189
40
1.00507
50
281.746
51
90.2362
0
ARC
8
Layer_1
6
CONTINUOUS
62
7
10
89.5451
20
180.29
40
1.00507
50
282.175
51
90.6976
0
ARC
8
Layer_1
6
CONTINUOUS
62
7
10
91.5798
20
176.481
40
1.00507
50
282.507
51
91.1111
0
ARC
8
Layer_1
6
CONTINUOUS
62
7
10
94.7558
20
172.793
40
1.00507
50
282.257
51
90.7954
0
ARC
8
Layer_1
6
CONTINUOUS
62
7
10
99.8756
20
169.311
40
1.00507
50
281.066
51
89.6295
0
ARC
8
Layer_1
6
CONTINUOUS
62
7
10
106.991
20
166.038
40
1.00507
50
280.168
51
89.0081
0
ARC
8
Layer_1
6
CONTINUOUS
62
7
10
106.994
20
162.015
40
1.00507
50
281.562
51
90.0582
0
ARC
8
Layer_1
6
CONTINUOUS
62
7
10
106.994
20
157.994
40
1.00507
50
280.769
51
89.404
0
ARC
8
Layer_1
6
CONTINUOUS
62
7
10
106.988
20
153.967
40
1.00507
50
283.058
51
91.9447
0
ARC
8
Layer_1
6
CONTINUOUS
62
7
10
106.994
20
149.949
40
1.00507
50
281.103
51
89.6596
0
ARC
8
Layer_1
6
CONTINUOUS
62
7
10
106.994
20
145.925
40
1.00507
50
282.128
51
90.6432
0
ARC
8
Layer_1
6
CONTINUOUS
62
7
10
106.994
20
141.908
40
1.00507
50
279.108
51
88.476
0
ARC
8
Layer_1
6
CONTINUOUS
62
7
10
106.991
20
137.881
40
1.00507
50
282.228
51
90.7596
0
ARC
8
Layer_1
6
CONTINUOUS
62
7
10
106.991
20
133.86
40
1.00507
50
281.53
51
90.0284
0
ARC
8
Layer_1
6
CONTINUOUS
62
7
10
106.991
20
129.836
40
1.00507
50
282.488
51
91.085
0
ARC
8
Layer_1
6
CONTINUOUS
62
7
10
106.994
20
125.816
40
1.00507
50
281.997
51
90.4969
0
ARC
8
Layer_1
6
CONTINUOUS
62
7
10
106.994
20
121.795
40
1.00507
50
281.269
51
89.7965
0
ARC
8
Layer_1
6
CONTINUOUS
62
7
10
106.994
20
117.771
40
1.00507
50
282.266
51
90.8058
0
ARC
8
Layer_1
6
CONTINUOUS
62
7
10
94.3174
20
116.442
40
1.00507
50
102.905
51
271.69
0
ARC
8
Layer_1
6
CONTINUOUS
62
7
10
83.9476
20
119.373
40
1.00507
50
102.255
51
270.792
0
ARC
8
Layer_1
6
CONTINUOUS
62
7
10
76.4202
20
122.604
40
1.00507
50
102.365
51
270.928
0
ARC
8
Layer_1
6
CONTINUOUS
62
7
10
70.3358
20
125.986
40
1.00507
50
102.411
51
270.986
0
ARC
8
Layer_1
6
CONTINUOUS
62
7
10
65.219
20
129.472
40
1.00507
50
102.969
51
271.794
0
ARC
8
Layer_1
6
CONTINUOUS
62
7
10
60.8131
20
133.03
40
1.00507
50
102.599
51
271.236
0
ARC
8
Layer_1
6
CONTINUOUS
62
7
10
56.9594
20
136.644
40
1.00507
50
100.794
51
269.422
0
ARC
8
Layer_1
6
CONTINUOUS
62
7
10
53.5597
20
140.309
40
1.00507
50
101.132
51
269.683
0
ARC
8
Layer_1
6
CONTINUOUS
62
7
10
50.5624
20
144.013
40
1.00507
50
98.2823
51
268.185
0
ARC
8
Layer_1
6
CONTINUOUS
62
7
10
47.912
20
147.759
40
1.00507
50
101.046
51
269.614
0
ARC
8
Layer_1
6
CONTINUOUS
62
7
10
45.5656
20
151.536
40
1.00507
50
101.731
51
270.221
0
ARC
8
Layer_1
6
CONTINUOUS
62
7
10
43.5103
20
155.342
40
1.00507
50
102.011
51
270.513
0
ARC
8
Layer_1
6
CONTINUOUS
62
7
10
41.7248
20
159.175
40
1.00507
50
100.701
51
269.356
0
ARC
8
Layer_1
6
CONTINUOUS
62
7
10
40.1833
20
163.032
40
1.00507
50
98.8872
51
268.388
0
ARC
8
Layer_1
6
CONTINUOUS
62
7
10
38.8817
20
166.92
40
1.00507
50
101.058
51
269.624
0
ARC
8
Layer_1
6
CONTINUOUS
62
7
10
37.8069
20
170.834
40
1.00507
50
103.405
51
272.618
0
ARC
8
Layer_1
6
CONTINUOUS
62
7
10
36.9591
20
174.765
40
1.00507
50
102.348
51
270.906
0
ARC
8
Layer_1
6
CONTINUOUS
62
7
10
36.3297
20
178.717
40
1.00507
50
99.9659
51
268.892
0
ENDSEC
0
EOF
